  0
SECTION
  2
HEADER
  9
$ACADVER
  1
AC1014
  9
$HANDSEED
  5
FFFF
  9
$MEASUREMENT
 70
     1
  0
ENDSEC
  0
SECTION
  2
TABLES
  0
TABLE
  2
VPORT
  5
8
330
0
100
AcDbSymbolTable
 70
     4
  0
VPORT
  5
2E
330
8
100
AcDbSymbolTableRecord
100
AcDbViewportTableRecord
  2
*ACTIVE
 70
     0
 10
0.0
 20
0.0
 11
1.0
 21
1.0
 12
210.0
 22
148.5
 13
0.0
 23
0.0
 14
10.0
 24
10.0
 15
10.0
 25
10.0
 16
0.0
 26
0.0
 36
1.0
 17
0.0
 27
0.0
 37
0.0
 40
341.0
 41
1.24
 42
50.0
 43
0.0
 44
0.0
 50
0.0
 51
0.0
 71
     0
 72
   100
 73
     1
 74
     3
 75
     0
 76
     0
 77
     0
 78
     0
  0
ENDTAB
  0
TABLE
  2
LTYPE
  5
5
330
0
100
AcDbSymbolTable
 70
     1
  0
LTYPE
  5
14
330
5
100
AcDbSymbolTableRecord
100
AcDbLinetypeTableRecord
  2
BYBLOCK
 70
     0
  3

 72
    65
 73
     0
 40
0.0
  0
LTYPE
  5
15
330
5
100
AcDbSymbolTableRecord
100
AcDbLinetypeTableRecord
  2
BYLAYER
 70
     0
  3

 72
    65
 73
     0
 40
0.0
  0
LTYPE
  5
16
330
5
100
AcDbSymbolTableRecord
100
AcDbLinetypeTableRecord
  2
CONTINUOUS
 70
     0
  3
Solid line
 72
    65
 73
     0
 40
0.0
  0
ENDTAB
  0
TABLE
  2
LAYER
  5
2
100
AcDbSymbolTable
 70
1
  0
LAYER
  5
50
100
AcDbSymbolTableRecord
100
AcDbLayerTableRecord
  2
0
 70
0
  6
CONTINUOUS
  0
ENDTAB
  0
TABLE
  2
STYLE
  5
3
330
0
100
AcDbSymbolTable
 70
     1
  0
STYLE
  5
11
330
3
100
AcDbSymbolTableRecord
100
AcDbTextStyleTableRecord
  2
STANDARD
 70
     0
 40
0.0
 41
1.0
 50
0.0
 71
     0
 42
2.5
  3
txt
  4

  0
ENDTAB
  0
TABLE
  2
VIEW
  5
6
330
0
100
AcDbSymbolTable
 70
     0
  0
ENDTAB
  0
TABLE
  2
UCS
  5
7
330
0
100
AcDbSymbolTable
 70
     0
  0
ENDTAB
  0
TABLE
  2
APPID
  5
9
330
0
100
AcDbSymbolTable
 70
     2
  0
APPID
  5
12
330
9
100
AcDbSymbolTableRecord
100
AcDbRegAppTableRecord
  2
ACAD
 70
     0
  0
ENDTAB
  0
TABLE
  2
DIMSTYLE
  5
A
330
0
100
AcDbSymbolTable
 70
     1
  0
DIMSTYLE
105
27
330
A
100
AcDbSymbolTableRecord
100
AcDbDimStyleTableRecord
  2
ISO-25
 70
     0
  3

  4

  5

  6

  7

 40
1.0
 41
2.5
 42
0.625
 43
3.75
 44
1.25
 45
0.0
 46
0.0
 47
0.0
 48
0.0
140
2.5
141
2.5
142
0.0
143
0.03937007874016
144
1.0
145
0.0
146
1.0
147
0.625
 71
     0
 72
     0
 73
     0
 74
     0
 75
     0
 76
     0
 77
     1
 78
     8
170
     0
171
     3
172
     1
173
     0
174
     0
175
     0
176
     0
177
     0
178
     0
270
     2
271
     2
272
     2
273
     2
274
     3
340
11
275
     0
280
     0
281
     0
282
     0
283
     0
284
     8
285
     0
286
     0
287
     3
288
     0
  0
ENDTAB
  0
TABLE
  2
BLOCK_RECORD
  5
1
330
0
100
AcDbSymbolTable
 70
     1
  0
BLOCK_RECORD
  5
1F
330
1
100
AcDbSymbolTableRecord
100
AcDbBlockTableRecord
  2
*MODEL_SPACE
  0
BLOCK_RECORD
  5
1B
330
1
100
AcDbSymbolTableRecord
100
AcDbBlockTableRecord
  2
*PAPER_SPACE
  0
ENDTAB
  0
ENDSEC
  0
SECTION
  2
BLOCKS
  0
BLOCK
  5
20
330
1F
100
AcDbEntity
  8
0
100
AcDbBlockBegin
  2
*MODEL_SPACE
 70
     0
 10
0.0
 20
0.0
 30
0.0
  3
*MODEL_SPACE
  1

  0
ENDBLK
  5
21
330
1F
100
AcDbEntity
  8
0
100
AcDbBlockEnd
  0
BLOCK
  5
1C
330
1B
100
AcDbEntity
 67
     1
  8
0
100
AcDbBlockBegin
  2
*PAPER_SPACE
  1

  0
ENDBLK
  5
1D
330
1B
100
AcDbEntity
 67
     1
  8
0
100
AcDbBlockEnd
  0
ENDSEC
  0
SECTION
  2
ENTITIES
  0
SPLINE
  5
100
100
AcDbEntity
  8
0
 62
7
100
AcDbSpline
 70
8
 71
3
 72
8
 73
4
 74
0
 40
0
 40
0
 40
0
 40
0
 40
1
 40
1
 40
1
 40
1
 10
127.899637
 20
24.736290
 30
0.0
 10
127.305142
 20
23.079503
 30
0.0
 10
126.965932
 20
22.759425
 30
0.0
 10
123.725243
 20
21.240285
 30
0.0
  0
SPLINE
  5
101
100
AcDbEntity
  8
0
 62
7
100
AcDbSpline
 70
8
 71
3
 72
8
 73
4
 74
0
 40
0
 40
0
 40
0
 40
0
 40
1
 40
1
 40
1
 40
1
 10
123.725243
 20
21.240285
 30
0.0
 10
120.490643
 20
19.724002
 30
0.0
 10
116.873828
 20
19.761900
 30
0.0
 10
111.646312
 20
21.366870
 30
0.0
  0
SPLINE
  5
102
100
AcDbEntity
  8
0
 62
7
100
AcDbSpline
 70
8
 71
3
 72
8
 73
4
 74
0
 40
0
 40
0
 40
0
 40
0
 40
1
 40
1
 40
1
 40
1
 10
111.646312
 20
21.366870
 30
0.0
 10
107.602643
 20
22.608367
 30
0.0
 10
107.008800
 20
22.636057
 30
0.0
 10
103.112730
 20
21.764827
 30
0.0
  0
SPLINE
  5
103
100
AcDbEntity
  8
0
 62
7
100
AcDbSpline
 70
8
 71
3
 72
8
 73
4
 74
0
 40
0
 40
0
 40
0
 40
0
 40
1
 40
1
 40
1
 40
1
 10
103.112730
 20
21.764827
 30
0.0
 10
98.599515
 20
20.755590
 30
0.0
 10
96.014655
 20
20.515260
 30
0.0
 10
92.643150
 20
20.791417
 30
0.0
  0
SPLINE
  5
104
100
AcDbEntity
  8
0
 62
7
100
AcDbSpline
 70
8
 71
3
 72
8
 73
4
 74
0
 40
0
 40
0
 40
0
 40
0
 40
1
 40
1
 40
1
 40
1
 10
92.643150
 20
20.791417
 30
0.0
 10
89.513663
 20
21.047753
 30
0.0
 10
88.011473
 20
21.304597
 30
0.0
 10
85.462658
 20
22.019160
 30
0.0
  0
SPLINE
  5
105
100
AcDbEntity
  8
0
 62
7
100
AcDbSpline
 70
8
 71
3
 72
8
 73
4
 74
0
 40
0
 40
0
 40
0
 40
0
 40
1
 40
1
 40
1
 40
1
 10
85.462658
 20
22.019160
 30
0.0
 10
84.380820
 20
22.322460
 30
0.0
 10
83.353170
 20
22.465868
 30
0.0
 10
82.848518
 20
22.383975
 30
0.0
  0
SPLINE
  5
106
100
AcDbEntity
  8
0
 62
7
100
AcDbSpline
 70
8
 71
3
 72
8
 73
4
 74
0
 40
0
 40
0
 40
0
 40
0
 40
1
 40
1
 40
1
 40
1
 10
82.848518
 20
22.383975
 30
0.0
 10
82.391160
 20
22.309725
 30
0.0
 10
81.087330
 20
21.659775
 30
0.0
 10
79.951103
 20
20.939565
 30
0.0
  0
SPLINE
  5
107
100
AcDbEntity
  8
0
 62
7
100
AcDbSpline
 70
8
 71
3
 72
8
 73
4
 74
0
 40
0
 40
0
 40
0
 40
0
 40
1
 40
1
 40
1
 40
1
 10
79.951103
 20
20.939565
 30
0.0
 10
77.436278
 20
19.345522
 30
0.0
 10
75.746513
 20
18.483285
 30
0.0
 10
74.230955
 20
18.020760
 30
0.0
  0
SPLINE
  5
108
100
AcDbEntity
  8
0
 62
7
100
AcDbSpline
 70
8
 71
3
 72
8
 73
4
 74
0
 40
0
 40
0
 40
0
 40
0
 40
1
 40
1
 40
1
 40
1
 10
74.230955
 20
18.020760
 30
0.0
 10
72.512780
 20
17.496390
 30
0.0
 10
70.145203
 20
17.382142
 30
0.0
 10
68.806603
 20
17.759003
 30
0.0
  0
SPLINE
  5
109
100
AcDbEntity
  8
0
 62
7
100
AcDbSpline
 70
8
 71
3
 72
8
 73
4
 74
0
 40
0
 40
0
 40
0
 40
0
 40
1
 40
1
 40
1
 40
1
 10
68.806670
 20
17.759003
 30
0.0
 10
66.486268
 20
18.412267
 30
0.0
 10
64.418128
 20
20.451833
 30
0.0
 10
63.731465
 20
22.764083
 30
0.0
  0
SPLINE
  5
10a
100
AcDbEntity
  8
0
 62
7
100
AcDbSpline
 70
8
 71
3
 72
8
 73
4
 74
0
 40
0
 40
0
 40
0
 40
0
 40
1
 40
1
 40
1
 40
1
 10
63.731465
 20
22.764083
 30
0.0
 10
63.214303
 20
24.074085
 30
0.0
 10
62.534953
 20
24.329062
 30
0.0
 10
62.534953
 20
24.329062
 30
0.0
  0
LWPOLYLINE
  5
10b
100
AcDbEntity
  8
0
 62
7
100
AcDbPolyline
 90
1
 70
1
 10
68.806603
 20
17.759003
 30
0.0
  0
SPLINE
  5
10c
100
AcDbEntity
  8
0
 62
7
100
AcDbSpline
 70
8
 71
3
 72
8
 73
4
 74
0
 40
0
 40
0
 40
0
 40
0
 40
1
 40
1
 40
1
 40
1
 10
36.897446
 20
24.268313
 30
0.0
 10
35.692781
 20
22.916618
 30
0.0
 10
34.664885
 20
21.914198
 30
0.0
 10
32.797083
 20
21.310313
 30
0.0
  0
SPLINE
  5
10d
100
AcDbEntity
  8
0
 62
7
100
AcDbSpline
 70
8
 71
3
 72
8
 73
4
 74
0
 40
0
 40
0
 40
0
 40
0
 40
1
 40
1
 40
1
 40
1
 10
32.797083
 20
21.310313
 30
0.0
 10
29.562483
 20
19.794030
 30
0.0
 10
25.945668
 20
19.831928
 30
0.0
 10
20.718153
 20
21.436898
 30
0.0
  0
SPLINE
  5
10e
100
AcDbEntity
  8
0
 62
7
100
AcDbSpline
 70
8
 71
3
 72
8
 73
4
 74
0
 40
0
 40
0
 40
0
 40
0
 40
1
 40
1
 40
1
 40
1
 10
20.718153
 20
21.436898
 30
0.0
 10
16.674483
 20
22.678395
 30
0.0
 10
16.080641
 20
22.706085
 30
0.0
 10
12.184571
 20
21.834855
 30
0.0
  0
SPLINE
  5
10f
100
AcDbEntity
  8
0
 62
7
100
AcDbSpline
 70
8
 71
3
 72
8
 73
4
 74
0
 40
0
 40
0
 40
0
 40
0
 40
1
 40
1
 40
1
 40
1
 10
12.184571
 20
21.834855
 30
0.0
 10
7.671356
 20
20.825618
 30
0.0
 10
5.086495
 20
20.585288
 30
0.0
 10
1.714990
 20
20.861445
 30
0.0
  0
SPLINE
  5
110
100
AcDbEntity
  8
0
 62
7
100
AcDbSpline
 70
8
 71
3
 72
8
 73
4
 74
0
 40
0
 40
0
 40
0
 40
0
 40
1
 40
1
 40
1
 40
1
 10
1.714990
 20
20.861445
 30
0.0
 10
-1.414497
 20
21.117780
 30
0.0
 10
-2.916687
 20
21.374625
 30
0.0
 10
-5.465502
 20
22.089188
 30
0.0
  0
SPLINE
  5
111
100
AcDbEntity
  8
0
 62
7
100
AcDbSpline
 70
8
 71
3
 72
8
 73
4
 74
0
 40
0
 40
0
 40
0
 40
0
 40
1
 40
1
 40
1
 40
1
 10
-5.465502
 20
22.089188
 30
0.0
 10
-6.547340
 20
22.392488
 30
0.0
 10
-7.574989
 20
22.535895
 30
0.0
 10
-8.079642
 20
22.454003
 30
0.0
  0
SPLINE
  5
112
100
AcDbEntity
  8
0
 62
7
100
AcDbSpline
 70
8
 71
3
 72
8
 73
4
 74
0
 40
0
 40
0
 40
0
 40
0
 40
1
 40
1
 40
1
 40
1
 10
-8.079642
 20
22.454003
 30
0.0
 10
-8.536999
 20
22.379753
 30
0.0
 10
-9.840829
 20
21.729803
 30
0.0
 10
-10.977057
 20
21.009593
 30
0.0
  0
SPLINE
  5
113
100
AcDbEntity
  8
0
 62
7
100
AcDbSpline
 70
8
 71
3
 72
8
 73
4
 74
0
 40
0
 40
0
 40
0
 40
0
 40
1
 40
1
 40
1
 40
1
 10
-10.977057
 20
21.009593
 30
0.0
 10
-13.491883
 20
19.415550
 30
0.0
 10
-15.181654
 20
18.553313
 30
0.0
 10
-16.697203
 20
18.090788
 30
0.0
  0
SPLINE
  5
114
100
AcDbEntity
  8
0
 62
7
100
AcDbSpline
 70
8
 71
3
 72
8
 73
4
 74
0
 40
0
 40
0
 40
0
 40
0
 40
1
 40
1
 40
1
 40
1
 10
-16.697203
 20
18.090788
 30
0.0
 10
-18.415378
 20
17.566418
 30
0.0
 10
-20.782956
 20
17.452170
 30
0.0
 10
-22.121558
 20
17.829030
 30
0.0
  0
LWPOLYLINE
  5
115
100
AcDbEntity
  8
0
 62
7
100
AcDbPolyline
 90
2
 70
0
 10
62.534953
 20
24.329062
 30
0.0
 10
36.897446
 20
24.268313
 30
0.0
  0
SPLINE
  5
116
100
AcDbEntity
  8
0
 62
7
100
AcDbSpline
 70
8
 71
3
 72
8
 73
4
 74
0
 40
0
 40
0
 40
0
 40
0
 40
1
 40
1
 40
1
 40
1
 10
-22.121493
 20
17.829030
 30
0.0
 10
-24.441895
 20
18.482295
 30
0.0
 10
-26.510035
 20
20.521860
 30
0.0
 10
-27.196699
 20
22.834110
 30
0.0
  0
SPLINE
  5
117
100
AcDbEntity
  8
0
 62
7
100
AcDbSpline
 70
8
 71
3
 72
8
 73
4
 74
0
 40
0
 40
0
 40
0
 40
0
 40
1
 40
1
 40
1
 40
1
 10
-27.196699
 20
22.834110
 30
0.0
 10
-27.713856
 20
24.575565
 30
0.0
 10
-27.667982
 20
28.207478
 30
0.0
 10
-27.098846
 20
30.581160
 30
0.0
  0
SPLINE
  5
118
100
AcDbEntity
  8
0
 62
7
100
AcDbSpline
 70
8
 71
3
 72
8
 73
4
 74
0
 40
0
 40
0
 40
0
 40
0
 40
1
 40
1
 40
1
 40
1
 10
-27.098846
 20
30.581160
 30
0.0
 10
-26.845492
 20
31.637828
 30
0.0
 10
-26.153260
 20
33.805688
 30
0.0
 10
-25.560552
 20
35.398643
 30
0.0
  0
SPLINE
  5
119
100
AcDbEntity
  8
0
 62
7
100
AcDbSpline
 70
8
 71
3
 72
8
 73
4
 74
0
 40
0
 40
0
 40
0
 40
0
 40
1
 40
1
 40
1
 40
1
 10
-25.560552
 20
35.398643
 30
0.0
 10
-24.107844
 20
39.302925
 30
0.0
 10
-23.923104
 20
40.463212
 30
0.0
 10
-24.111465
 20
44.499960
 30
0.0
  0
SPLINE
  5
11a
100
AcDbEntity
  8
0
 62
7
100
AcDbSpline
 70
8
 71
3
 72
8
 73
4
 74
0
 40
0
 40
0
 40
0
 40
0
 40
1
 40
1
 40
1
 40
1
 10
-24.111465
 20
44.499960
 30
0.0
 10
-24.218056
 20
46.784288
 30
0.0
 10
-24.171360
 20
48.436215
 30
0.0
 10
-23.965598
 20
49.659960
 30
0.0
  0
SPLINE
  5
11b
100
AcDbEntity
  8
0
 62
7
100
AcDbSpline
 70
8
 71
3
 72
8
 73
4
 74
0
 40
0
 40
0
 40
0
 40
0
 40
1
 40
1
 40
1
 40
1
 10
-23.965598
 20
49.659960
 30
0.0
 10
-22.926472
 20
55.840118
 30
0.0
 10
-17.561944
 20
65.257447
 30
0.0
 10
-11.149227
 20
72.158867
 30
0.0
  0
SPLINE
  5
11c
100
AcDbEntity
  8
0
 62
7
100
AcDbSpline
 70
8
 71
3
 72
8
 73
4
 74
0
 40
0
 40
0
 40
0
 40
0
 40
1
 40
1
 40
1
 40
1
 10
-11.149227
 20
72.158867
 30
0.0
 10
-8.425414
 20
75.090259
 30
0.0
 10
-7.642849
 20
76.198070
 30
0.0
 10
-7.642849
 20
77.122564
 30
0.0
  0
SPLINE
  5
11d
100
AcDbEntity
  8
0
 62
7
100
AcDbSpline
 70
8
 71
3
 72
8
 73
4
 74
0
 40
0
 40
0
 40
0
 40
0
 40
1
 40
1
 40
1
 40
1
 10
-7.642849
 20
77.122564
 30
0.0
 10
-7.642849
 20
78.086857
 30
0.0
 10
-7.999317
 20
78.594595
 30
0.0
 10
-10.527139
 20
81.230881
 30
0.0
  0
SPLINE
  5
11e
100
AcDbEntity
  8
0
 62
7
100
AcDbSpline
 70
8
 71
3
 72
8
 73
4
 74
0
 40
0
 40
0
 40
0
 40
0
 40
1
 40
1
 40
1
 40
1
 10
-10.527139
 20
81.230881
 30
0.0
 10
-13.255485
 20
84.076301
 30
0.0
 10
-14.036875
 20
85.189595
 30
0.0
 10
-14.379163
 20
86.719093
 30
0.0
  0
SPLINE
  5
11f
100
AcDbEntity
  8
0
 62
7
100
AcDbSpline
 70
8
 71
3
 72
8
 73
4
 74
0
 40
0
 40
0
 40
0
 40
0
 40
1
 40
1
 40
1
 40
1
 10
-14.379163
 20
86.719093
 30
0.0
 10
-14.775158
 20
88.488585
 30
0.0
 10
-14.242502
 20
90.923548
 30
0.0
 10
-12.274569
 20
96.339957
 30
0.0
  0
SPLINE
  5
120
100
AcDbEntity
  8
0
 62
7
100
AcDbSpline
 70
8
 71
3
 72
8
 73
4
 74
0
 40
0
 40
0
 40
0
 40
0
 40
1
 40
1
 40
1
 40
1
 10
-12.274569
 20
96.339957
 30
0.0
 10
-10.290627
 20
101.800417
 30
0.0
 10
-10.048812
 20
102.669897
 30
0.0
 10
-10.316224
 20
103.381351
 30
0.0
  0
SPLINE
  5
121
100
AcDbEntity
  8
0
 62
7
100
AcDbSpline
 70
8
 71
3
 72
8
 73
4
 74
0
 40
0
 40
0
 40
0
 40
0
 40
1
 40
1
 40
1
 40
1
 10
-10.316224
 20
103.381351
 30
0.0
 10
-10.432287
 20
103.690117
 30
0.0
 10
-11.147254
 20
104.564353
 30
0.0
 10
-11.905046
 20
105.324097
 30
0.0
  0
SPLINE
  5
122
100
AcDbEntity
  8
0
 62
7
100
AcDbSpline
 70
8
 71
3
 72
8
 73
4
 74
0
 40
0
 40
0
 40
0
 40
0
 40
1
 40
1
 40
1
 40
1
 10
-11.905046
 20
105.324097
 30
0.0
 10
-13.553179
 20
106.976473
 30
0.0
 10
-14.953495
 20
109.363555
 30
0.0
 10
-16.278830
 20
112.779957
 30
0.0
  0
SPLINE
  5
123
100
AcDbEntity
  8
0
 62
7
100
AcDbSpline
 70
8
 71
3
 72
8
 73
4
 74
0
 40
0
 40
0
 40
0
 40
0
 40
1
 40
1
 40
1
 40
1
 10
-16.278830
 20
112.779957
 30
0.0
 10
-17.803718
 20
116.710765
 30
0.0
 10
-17.634921
 20
116.504113
 30
0.0
 10
-19.296859
 20
116.474836
 30
0.0
  0
SPLINE
  5
124
100
AcDbEntity
  8
0
 62
7
100
AcDbSpline
 70
8
 71
3
 72
8
 73
4
 74
0
 40
0
 40
0
 40
0
 40
0
 40
1
 40
1
 40
1
 40
1
 10
-19.296859
 20
116.474836
 30
0.0
 10
-20.245128
 20
116.458134
 30
0.0
 10
-22.330658
 20
115.993223
 30
0.0
 10
-25.522104
 20
115.087099
 30
0.0
  0
SPLINE
  5
125
100
AcDbEntity
  8
0
 62
7
100
AcDbSpline
 70
8
 71
3
 72
8
 73
4
 74
0
 40
0
 40
0
 40
0
 40
0
 40
1
 40
1
 40
1
 40
1
 10
-25.522104
 20
115.087099
 30
0.0
 10
-31.478505
 20
113.395941
 30
0.0
 10
-34.700197
 20
112.794357
 30
0.0
 10
-38.782852
 20
112.610932
 30
0.0
  0
SPLINE
  5
126
100
AcDbEntity
  8
0
 62
7
100
AcDbSpline
 70
8
 71
3
 72
8
 73
4
 74
0
 40
0
 40
0
 40
0
 40
0
 40
1
 40
1
 40
1
 40
1
 10
-38.782852
 20
112.610932
 30
0.0
 10
-42.373830
 20
112.449599
 30
0.0
 10
-42.383205
 20
112.455115
 30
0.0
 10
-41.490922
 20
114.204145
 30
0.0
  0
SPLINE
  5
127
100
AcDbEntity
  8
0
 62
7
100
AcDbSpline
 70
8
 71
3
 72
8
 73
4
 74
0
 40
0
 40
0
 40
0
 40
0
 40
1
 40
1
 40
1
 40
1
 10
-41.490922
 20
114.204145
 30
0.0
 10
-40.843020
 20
115.474132
 30
0.0
 10
-37.260847
 20
120.242560
 30
0.0
 10
-34.302075
 20
123.773620
 30
0.0
  0
SPLINE
  5
128
100
AcDbEntity
  8
0
 62
7
100
AcDbSpline
 70
8
 71
3
 72
8
 73
4
 74
0
 40
0
 40
0
 40
0
 40
0
 40
1
 40
1
 40
1
 40
1
 10
-34.302075
 20
123.773620
 30
0.0
 10
-28.373784
 20
130.848561
 30
0.0
 10
-23.015786
 20
135.487085
 30
0.0
 10
-14.842435
 20
140.620218
 30
0.0
  0
SPLINE
  5
129
100
AcDbEntity
  8
0
 62
7
100
AcDbSpline
 70
8
 71
3
 72
8
 73
4
 74
0
 40
0
 40
0
 40
0
 40
0
 40
1
 40
1
 40
1
 40
1
 10
-14.842435
 20
140.620218
 30
0.0
 10
-10.702219
 20
143.220413
 30
0.0
 10
-10.715487
 20
143.221678
 30
0.0
 10
-8.544874
 20
140.019957
 30
0.0
  0
SPLINE
  5
12a
100
AcDbEntity
  8
0
 62
7
100
AcDbSpline
 70
8
 71
3
 72
8
 73
4
 74
0
 40
0
 40
0
 40
0
 40
0
 40
1
 40
1
 40
1
 40
1
 10
-8.544874
 20
140.019957
 30
0.0
 10
-5.294532
 20
135.225588
 30
0.0
 10
-2.595627
 20
129.062233
 30
0.0
 10
1.478785
 20
117.129446
 30
0.0
  0
LWPOLYLINE
  5
12b
100
AcDbEntity
  8
0
 62
7
100
AcDbPolyline
 90
1
 70
1
 10
-22.121558
 20
17.829030
 30
0.0
  0
SPLINE
  5
12c
100
AcDbEntity
  8
0
 62
7
100
AcDbSpline
 70
8
 71
3
 72
8
 73
4
 74
0
 40
0
 40
0
 40
0
 40
0
 40
1
 40
1
 40
1
 40
1
 10
5.537328
 20
110.284922
 30
0.0
 10
6.532923
 20
110.265385
 30
0.0
 10
7.362430
 20
110.361732
 30
0.0
 10
7.486593
 20
110.511336
 30
0.0
  0
SPLINE
  5
12d
100
AcDbEntity
  8
0
 62
7
100
AcDbSpline
 70
8
 71
3
 72
8
 73
4
 74
0
 40
0
 40
0
 40
0
 40
0
 40
1
 40
1
 40
1
 40
1
 10
7.486593
 20
110.511336
 30
0.0
 10
7.606631
 20
110.655977
 30
0.0
 10
7.683378
 20
114.072629
 30
0.0
 10
7.659206
 20
118.195864
 30
0.0
  0
SPLINE
  5
12e
100
AcDbEntity
  8
0
 62
7
100
AcDbSpline
 70
8
 71
3
 72
8
 73
4
 74
0
 40
0
 40
0
 40
0
 40
0
 40
1
 40
1
 40
1
 40
1
 10
7.659206
 20
118.195864
 30
0.0
 10
7.618706
 20
125.109331
 30
0.0
 10
7.653206
 20
125.792189
 30
0.0
 10
8.159936
 20
128.124029
 30
0.0
  0
SPLINE
  5
12f
100
AcDbEntity
  8
0
 62
7
100
AcDbSpline
 70
8
 71
3
 72
8
 73
4
 74
0
 40
0
 40
0
 40
0
 40
0
 40
1
 40
1
 40
1
 40
1
 10
8.159936
 20
128.124029
 30
0.0
 10
8.806623
 20
131.099338
 30
0.0
 10
9.971418
 20
134.218687
 30
0.0
 10
11.481768
 20
137.019960
 30
0.0
  0
SPLINE
  5
130
100
AcDbEntity
  8
0
 62
7
100
AcDbSpline
 70
8
 71
3
 72
8
 73
4
 74
0
 40
0
 40
0
 40
0
 40
0
 40
1
 40
1
 40
1
 40
1
 10
11.481768
 20
137.019960
 30
0.0
 10
14.380091
 20
142.395527
 30
0.0
 10
21.285018
 20
151.529870
 30
0.0
 10
23.471973
 20
152.881482
 30
0.0
  0
LWPOLYLINE
  5
131
100
AcDbEntity
  8
0
 62
7
100
AcDbPolyline
 90
3
 70
0
 10
1.478785
 20
117.129446
 30
0.0
 10
3.804205
 20
110.318935
 30
0.0
 10
5.537328
 20
110.284922
 30
0.0
  0
SPLINE
  5
132
100
AcDbEntity
  8
0
 62
7
100
AcDbSpline
 70
8
 71
3
 72
8
 73
4
 74
0
 40
0
 40
0
 40
0
 40
0
 40
1
 40
1
 40
1
 40
1
 10
24.757053
 20
152.919681
 30
0.0
 10
25.006286
 20
152.611890
 30
0.0
 10
25.325508
 20
151.370656
 30
0.0
 10
25.577388
 20
149.729972
 30
0.0
  0
SPLINE
  5
133
100
AcDbEntity
  8
0
 62
7
100
AcDbSpline
 70
8
 71
3
 72
8
 73
4
 74
0
 40
0
 40
0
 40
0
 40
0
 40
1
 40
1
 40
1
 40
1
 10
25.577388
 20
149.729972
 30
0.0
 10
25.804173
 20
148.252757
 30
0.0
 10
26.523783
 20
144.686658
 30
0.0
 10
27.176523
 20
141.805308
 30
0.0
  0
SPLINE
  5
134
100
AcDbEntity
  8
0
 62
7
100
AcDbSpline
 70
8
 71
3
 72
8
 73
4
 74
0
 40
0
 40
0
 40
0
 40
0
 40
1
 40
1
 40
1
 40
1
 10
27.176523
 20
141.805308
 30
0.0
 10
28.953348
 20
133.962005
 30
0.0
 10
29.336981
 20
131.214206
 30
0.0
 10
29.487296
 20
125.254092
 30
0.0
  0
SPLINE
  5
135
100
AcDbEntity
  8
0
 62
7
100
AcDbSpline
 70
8
 71
3
 72
8
 73
4
 74
0
 40
0
 40
0
 40
0
 40
0
 40
1
 40
1
 40
1
 40
1
 10
29.487296
 20
125.254092
 30
0.0
 10
29.589438
 20
121.204414
 30
0.0
 10
29.535521
 20
119.570923
 30
0.0
 10
29.237703
 20
117.694092
 30
0.0
  0
SPLINE
  5
136
100
AcDbEntity
  8
0
 62
7
100
AcDbSpline
 70
8
 71
3
 72
8
 73
4
 74
0
 40
0
 40
0
 40
0
 40
0
 40
1
 40
1
 40
1
 40
1
 10
29.237703
 20
117.694092
 30
0.0
 10
28.461153
 20
112.800053
 30
0.0
 10
26.878811
 20
108.647364
 30
0.0
 10
24.483056
 20
105.216034
 30
0.0
  0
SPLINE
  5
137
100
AcDbEntity
  8
0
 62
7
100
AcDbSpline
 70
8
 71
3
 72
8
 73
4
 74
0
 40
0
 40
0
 40
0
 40
0
 40
1
 40
1
 40
1
 40
1
 10
24.483056
 20
105.216034
 30
0.0
 10
22.898726
 20
102.946874
 30
0.0
 10
22.896386
 20
102.763872
 30
0.0
 10
24.392486
 20
98.139960
 30
0.0
  0
SPLINE
  5
138
100
AcDbEntity
  8
0
 62
7
100
AcDbSpline
 70
8
 71
3
 72
8
 73
4
 74
0
 40
0
 40
0
 40
0
 40
0
 40
1
 40
1
 40
1
 40
1
 10
24.392486
 20
98.139960
 30
0.0
 10
27.541811
 20
88.406468
 30
0.0
 10
27.210071
 20
86.002490
 30
0.0
 10
21.970301
 20
80.587522
 30
0.0
  0
SPLINE
  5
139
100
AcDbEntity
  8
0
 62
7
100
AcDbSpline
 70
8
 71
3
 72
8
 73
4
 74
0
 40
0
 40
0
 40
0
 40
0
 40
1
 40
1
 40
1
 40
1
 10
21.970301
 20
80.587522
 30
0.0
 10
20.041241
 20
78.593962
 30
0.0
 10
19.881971
 20
78.139798
 30
0.0
 10
20.662818
 20
76.859196
 30
0.0
  0
SPLINE
  5
13a
100
AcDbEntity
  8
0
 62
7
100
AcDbSpline
 70
8
 71
3
 72
8
 73
4
 74
0
 40
0
 40
0
 40
0
 40
0
 40
1
 40
1
 40
1
 40
1
 10
20.662818
 20
76.859196
 30
0.0
 10
20.917953
 20
76.440778
 30
0.0
 10
22.893378
 20
74.271895
 30
0.0
 10
25.052658
 20
72.039452
 30
0.0
  0
SPLINE
  5
13b
100
AcDbEntity
  8
0
 62
7
100
AcDbSpline
 70
8
 71
3
 72
8
 73
4
 74
0
 40
0
 40
0
 40
0
 40
0
 40
1
 40
1
 40
1
 40
1
 10
25.052658
 20
72.039452
 30
0.0
 10
27.211931
 20
69.807020
 30
0.0
 10
28.625449
 20
68.606250
 30
0.0
 10
29.312441
 20
67.693110
 30
0.0
  0
SPLINE
  5
13c
100
AcDbEntity
  8
0
 62
7
100
AcDbSpline
 70
8
 71
3
 72
8
 73
4
 74
0
 40
0
 40
0
 40
0
 40
0
 40
1
 40
1
 40
1
 40
1
 10
29.312441
 20
67.693110
 30
0.0
 10
30.752524
 20
66.746332
 30
0.0
 10
30.994946
 20
65.814082
 30
0.0
 10
32.507883
 20
63.921840
 30
0.0
  0
SPLINE
  5
13d
100
AcDbEntity
  8
0
 62
7
100
AcDbSpline
 70
8
 71
3
 72
8
 73
4
 74
0
 40
0
 40
0
 40
0
 40
0
 40
1
 40
1
 40
1
 40
1
 10
32.507883
 20
63.921840
 30
0.0
 10
47.028565
 20
73.435202
 30
0.0
 10
58.828161
 20
70.250165
 30
0.0
 10
69.925754
 20
63.789120
 30
0.0
  0
SPLINE
  5
13e
100
AcDbEntity
  8
0
 62
7
100
AcDbSpline
 70
8
 71
3
 72
8
 73
4
 74
0
 40
0
 40
0
 40
0
 40
0
 40
1
 40
1
 40
1
 40
1
 10
69.925754
 20
63.789120
 30
0.0
 10
71.700928
 20
66.829117
 30
0.0
 10
76.141148
 20
70.161508
 30
0.0
 10
79.778933
 20
72.088814
 30
0.0
  0
SPLINE
  5
13f
100
AcDbEntity
  8
0
 62
7
100
AcDbSpline
 70
8
 71
3
 72
8
 73
4
 74
0
 40
0
 40
0
 40
0
 40
0
 40
1
 40
1
 40
1
 40
1
 10
79.778933
 20
72.088814
 30
0.0
 10
83.366025
 20
73.862221
 30
0.0
 10
83.285310
 20
76.128014
 30
0.0
 10
83.285310
 20
77.052509
 30
0.0
  0
SPLINE
  5
140
100
AcDbEntity
  8
0
 62
7
100
AcDbSpline
 70
8
 71
3
 72
8
 73
4
 74
0
 40
0
 40
0
 40
0
 40
0
 40
1
 40
1
 40
1
 40
1
 10
83.285310
 20
77.052509
 30
0.0
 10
83.285310
 20
78.016799
 30
0.0
 10
83.576025
 20
78.524540
 30
0.0
 10
81.048203
 20
81.160827
 30
0.0
  0
SPLINE
  5
141
100
AcDbEntity
  8
0
 62
7
100
AcDbSpline
 70
8
 71
3
 72
8
 73
4
 74
0
 40
0
 40
0
 40
0
 40
0
 40
1
 40
1
 40
1
 40
1
 10
81.048203
 20
81.160827
 30
0.0
 10
78.319860
 20
84.006246
 30
0.0
 10
76.891290
 20
85.119541
 30
0.0
 10
76.548997
 20
86.649039
 30
0.0
  0
SPLINE
  5
142
100
AcDbEntity
  8
0
 62
7
100
AcDbSpline
 70
8
 71
3
 72
8
 73
4
 74
0
 40
0
 40
0
 40
0
 40
0
 40
1
 40
1
 40
1
 40
1
 10
76.548997
 20
86.649039
 30
0.0
 10
76.153005
 20
88.418531
 30
0.0
 10
75.607020
 20
91.284949
 30
0.0
 10
77.574960
 20
96.701357
 30
0.0
  0
SPLINE
  5
143
100
AcDbEntity
  8
0
 62
7
100
AcDbSpline
 70
8
 71
3
 72
8
 73
4
 74
0
 40
0
 40
0
 40
0
 40
0
 40
1
 40
1
 40
1
 40
1
 10
77.574960
 20
96.701357
 30
0.0
 10
79.558898
 20
102.161818
 30
0.0
 10
81.298837
 20
103.324419
 30
0.0
 10
81.031425
 20
104.074008
 30
0.0
  0
SPLINE
  5
144
100
AcDbEntity
  8
0
 62
7
100
AcDbSpline
 70
8
 71
3
 72
8
 73
4
 74
0
 40
0
 40
0
 40
0
 40
0
 40
1
 40
1
 40
1
 40
1
 10
81.031425
 20
104.074008
 30
0.0
 10
81.031425
 20
104.074008
 30
0.0
 10
81.153787
 20
104.761248
 30
0.0
 10
79.938375
 20
106.016755
 30
0.0
  0
SPLINE
  5
145
100
AcDbEntity
  8
0
 62
7
100
AcDbSpline
 70
8
 71
3
 72
8
 73
4
 74
0
 40
0
 40
0
 40
0
 40
0
 40
1
 40
1
 40
1
 40
1
 10
79.938375
 20
106.016755
 30
0.0
 10
78.290243
 20
107.669131
 30
0.0
 10
75.974670
 20
109.293500
 30
0.0
 10
74.649328
 20
112.709902
 30
0.0
  0
SPLINE
  5
146
100
AcDbEntity
  8
0
 62
7
100
AcDbSpline
 70
8
 71
3
 72
8
 73
4
 74
0
 40
0
 40
0
 40
0
 40
0
 40
1
 40
1
 40
1
 40
1
 10
74.649328
 20
112.709902
 30
0.0
 10
73.124443
 20
116.640711
 30
0.0
 10
71.957479
 20
121.370384
 30
0.0
 10
71.631305
 20
127.387833
 30
0.0
  0
SPLINE
  5
147
100
AcDbEntity
  8
0
 62
7
100
AcDbSpline
 70
8
 71
3
 72
8
 73
4
 74
0
 40
0
 40
0
 40
0
 40
0
 40
1
 40
1
 40
1
 40
1
 10
71.631305
 20
127.387833
 30
0.0
 10
71.305132
 20
133.405282
 30
0.0
 10
71.559965
 20
133.265097
 30
0.0
 10
72.185407
 20
139.873057
 30
0.0
  0
SPLINE
  5
148
100
AcDbEntity
  8
0
 62
7
100
AcDbSpline
 70
8
 71
3
 72
8
 73
4
 74
0
 40
0
 40
0
 40
0
 40
0
 40
1
 40
1
 40
1
 40
1
 10
72.185407
 20
139.873057
 30
0.0
 10
74.493347
 20
146.854024
 30
0.0
 10
78.471322
 20
151.480110
 30
0.0
 10
79.746750
 20
152.906095
 30
0.0
  0
SPLINE
  5
149
100
AcDbEntity
  8
0
 62
7
100
AcDbSpline
 70
8
 71
3
 72
8
 73
4
 74
0
 40
0
 40
0
 40
0
 40
0
 40
1
 40
1
 40
1
 40
1
 10
79.746750
 20
152.906095
 30
0.0
 10
81.022170
 20
154.332082
 30
0.0
 10
84.552337
 20
147.619172
 30
0.0
 10
86.959553
 20
142.695665
 30
0.0
  0
SPLINE
  5
14a
100
AcDbEntity
  8
0
 62
7
100
AcDbSpline
 70
8
 71
3
 72
8
 73
4
 74
0
 40
0
 40
0
 40
0
 40
0
 40
1
 40
1
 40
1
 40
1
 10
86.959553
 20
142.695665
 30
0.0
 10
89.366775
 20
137.772157
 30
0.0
 10
91.406752
 20
134.025285
 30
0.0
 10
92.622675
 20
130.003040
 30
0.0
  0
SPLINE
  5
14b
100
AcDbEntity
  8
0
 62
7
100
AcDbSpline
 70
8
 71
3
 72
8
 73
4
 74
0
 40
0
 40
0
 40
0
 40
0
 40
1
 40
1
 40
1
 40
1
 10
92.622675
 20
130.003040
 30
0.0
 10
93.838597
 20
125.980796
 30
0.0
 10
94.732365
 20
110.248880
 30
0.0
 10
94.732365
 20
110.248880
 30
0.0
  0
LWPOLYLINE
  5
14c
100
AcDbEntity
  8
0
 62
7
100
AcDbPolyline
 90
3
 70
0
 10
23.471973
 20
152.881482
 30
0.0
 10
24.349046
 20
153.423544
 30
0.0
 10
24.757053
 20
152.919681
 30
0.0
  0
SPLINE
  5
14d
100
AcDbEntity
  8
0
 62
7
100
AcDbSpline
 70
8
 71
3
 72
8
 73
4
 74
0
 40
0
 40
0
 40
0
 40
0
 40
1
 40
1
 40
1
 40
1
 10
96.465488
 20
110.214868
 30
0.0
 10
97.461083
 20
110.195330
 30
0.0
 10
98.290590
 20
110.291677
 30
0.0
 10
98.414753
 20
110.441281
 30
0.0
  0
SPLINE
  5
14e
100
AcDbEntity
  8
0
 62
7
100
AcDbSpline
 70
8
 71
3
 72
8
 73
4
 74
0
 40
0
 40
0
 40
0
 40
0
 40
1
 40
1
 40
1
 40
1
 10
98.414753
 20
110.441281
 30
0.0
 10
98.534790
 20
110.585922
 30
0.0
 10
98.611538
 20
114.002574
 30
0.0
 10
98.587365
 20
118.125810
 30
0.0
  0
SPLINE
  5
14f
100
AcDbEntity
  8
0
 62
7
100
AcDbSpline
 70
8
 71
3
 72
8
 73
4
 74
0
 40
0
 40
0
 40
0
 40
0
 40
1
 40
1
 40
1
 40
1
 10
98.587365
 20
118.125810
 30
0.0
 10
98.546865
 20
125.039277
 30
0.0
 10
98.581365
 20
125.722134
 30
0.0
 10
99.088095
 20
128.053974
 30
0.0
  0
SPLINE
  5
150
100
AcDbEntity
  8
0
 62
7
100
AcDbSpline
 70
8
 71
3
 72
8
 73
4
 74
0
 40
0
 40
0
 40
0
 40
0
 40
1
 40
1
 40
1
 40
1
 10
99.088095
 20
128.053974
 30
0.0
 10
99.734783
 20
131.029283
 30
0.0
 10
100.899578
 20
134.148632
 30
0.0
 10
102.409928
 20
136.949905
 30
0.0
  0
SPLINE
  5
151
100
AcDbEntity
  8
0
 62
7
100
AcDbSpline
 70
8
 71
3
 72
8
 73
4
 74
0
 40
0
 40
0
 40
0
 40
0
 40
1
 40
1
 40
1
 40
1
 10
102.409928
 20
136.949905
 30
0.0
 10
105.308250
 20
142.325472
 30
0.0
 10
112.213178
 20
151.459815
 30
0.0
 10
114.400133
 20
152.811427
 30
0.0
  0
LWPOLYLINE
  5
152
100
AcDbEntity
  8
0
 62
7
100
AcDbPolyline
 90
2
 70
0
 10
94.732365
 20
110.248880
 30
0.0
 10
96.465488
 20
110.214868
 30
0.0
  0
SPLINE
  5
153
100
AcDbEntity
  8
0
 62
7
100
AcDbSpline
 70
8
 71
3
 72
8
 73
4
 74
0
 40
0
 40
0
 40
0
 40
0
 40
1
 40
1
 40
1
 40
1
 10
115.685213
 20
152.849626
 30
0.0
 10
115.934445
 20
152.541835
 30
0.0
 10
116.253668
 20
151.300601
 30
0.0
 10
116.505548
 20
149.659918
 30
0.0
  0
SPLINE
  5
154
100
AcDbEntity
  8
0
 62
7
100
AcDbSpline
 70
8
 71
3
 72
8
 73
4
 74
0
 40
0
 40
0
 40
0
 40
0
 40
1
 40
1
 40
1
 40
1
 10
116.505548
 20
149.659918
 30
0.0
 10
116.732333
 20
148.182702
 30
0.0
 10
117.451943
 20
144.616603
 30
0.0
 10
118.104683
 20
141.735253
 30
0.0
  0
SPLINE
  5
155
100
AcDbEntity
  8
0
 62
7
100
AcDbSpline
 70
8
 71
3
 72
8
 73
4
 74
0
 40
0
 40
0
 40
0
 40
0
 40
1
 40
1
 40
1
 40
1
 10
118.104683
 20
141.735253
 30
0.0
 10
119.881508
 20
133.891951
 30
0.0
 10
120.265140
 20
131.144152
 30
0.0
 10
120.415455
 20
125.184037
 30
0.0
  0
SPLINE
  5
156
100
AcDbEntity
  8
0
 62
7
100
AcDbSpline
 70
8
 71
3
 72
8
 73
4
 74
0
 40
0
 40
0
 40
0
 40
0
 40
1
 40
1
 40
1
 40
1
 10
120.415455
 20
125.184037
 30
0.0
 10
120.517598
 20
121.134359
 30
0.0
 10
120.463680
 20
119.500869
 30
0.0
 10
120.165863
 20
117.624037
 30
0.0
  0
SPLINE
  5
157
100
AcDbEntity
  8
0
 62
7
100
AcDbSpline
 70
8
 71
3
 72
8
 73
4
 74
0
 40
0
 40
0
 40
0
 40
0
 40
1
 40
1
 40
1
 40
1
 10
120.165863
 20
117.624037
 30
0.0
 10
119.389313
 20
112.729998
 30
0.0
 10
117.806970
 20
108.577309
 30
0.0
 10
115.411215
 20
105.145979
 30
0.0
  0
SPLINE
  5
158
100
AcDbEntity
  8
0
 62
7
100
AcDbSpline
 70
8
 71
3
 72
8
 73
4
 74
0
 40
0
 40
0
 40
0
 40
0
 40
1
 40
1
 40
1
 40
1
 10
115.411215
 20
105.145979
 30
0.0
 10
113.826885
 20
102.876820
 30
0.0
 10
113.824545
 20
102.693817
 30
0.0
 10
115.320645
 20
98.069905
 30
0.0
  0
SPLINE
  5
159
100
AcDbEntity
  8
0
 62
7
100
AcDbSpline
 70
8
 71
3
 72
8
 73
4
 74
0
 40
0
 40
0
 40
0
 40
0
 40
1
 40
1
 40
1
 40
1
 10
115.320645
 20
98.069905
 30
0.0
 10
118.911023
 20
92.746962
 30
0.0
 10
118.221203
 20
86.762176
 30
0.0
 10
112.898460
 20
80.517467
 30
0.0
  0
SPLINE
  5
15a
100
AcDbEntity
  8
0
 62
7
100
AcDbSpline
 70
8
 71
3
 72
8
 73
4
 74
0
 40
0
 40
0
 40
0
 40
0
 40
1
 40
1
 40
1
 40
1
 10
112.898460
 20
80.517467
 30
0.0
 10
111.098933
 20
78.406243
 30
0.0
 10
110.810130
 20
78.069742
 30
0.0
 10
111.590978
 20
76.789139
 30
0.0
  0
SPLINE
  5
15b
100
AcDbEntity
  8
0
 62
7
100
AcDbSpline
 70
8
 71
3
 72
8
 73
4
 74
0
 40
0
 40
0
 40
0
 40
0
 40
1
 40
1
 40
1
 40
1
 10
111.590978
 20
76.789139
 30
0.0
 10
111.846113
 20
76.370722
 30
0.0
 10
113.380718
 20
73.668158
 30
0.0
 10
115.980818
 20
71.969399
 30
0.0
  0
SPLINE
  5
15c
100
AcDbEntity
  8
0
 62
7
100
AcDbSpline
 70
8
 71
3
 72
8
 73
4
 74
0
 40
0
 40
0
 40
0
 40
0
 40
1
 40
1
 40
1
 40
1
 10
115.980818
 20
71.969399
 30
0.0
 10
117.529920
 20
70.957303
 30
0.0
 10
119.095980
 20
69.909073
 30
0.0
 10
121.003313
 20
68.843392
 30
0.0
  0
SPLINE
  5
15d
100
AcDbEntity
  8
0
 62
7
100
AcDbSpline
 70
8
 71
3
 72
8
 73
4
 74
0
 40
0
 40
0
 40
0
 40
0
 40
1
 40
1
 40
1
 40
1
 10
121.003313
 20
68.843392
 30
0.0
 10
122.475893
 20
67.591530
 30
0.0
 10
123.390383
 20
66.803970
 30
0.0
 10
124.956983
 20
63.839077
 30
0.0
  0
SPLINE
  5
15e
100
AcDbEntity
  8
0
 62
7
100
AcDbSpline
 70
8
 71
3
 72
8
 73
4
 74
0
 40
0
 40
0
 40
0
 40
0
 40
1
 40
1
 40
1
 40
1
 10
124.956983
 20
63.839077
 30
0.0
 10
135.200138
 20
69.422428
 30
0.0
 10
145.458233
 20
74.968438
 30
0.0
 10
162.440790
 20
63.703297
 30
0.0
  0
SPLINE
  5
15f
100
AcDbEntity
  8
0
 62
7
100
AcDbSpline
 70
8
 71
3
 72
8
 73
4
 74
0
 40
0
 40
0
 40
0
 40
0
 40
1
 40
1
 40
1
 40
1
 10
162.440790
 20
63.703297
 30
0.0
 10
165.108413
 20
69.888748
 30
0.0
 10
166.699935
 20
68.709322
 30
0.0
 10
169.778933
 20
72.088844
 30
0.0
  0
SPLINE
  5
160
100
AcDbEntity
  8
0
 62
7
100
AcDbSpline
 70
8
 71
3
 72
8
 73
4
 74
0
 40
0
 40
0
 40
0
 40
0
 40
1
 40
1
 40
1
 40
1
 10
169.778933
 20
72.088844
 30
0.0
 10
172.502745
 20
75.020234
 30
0.0
 10
173.285310
 20
76.128044
 30
0.0
 10
173.285310
 20
77.052539
 30
0.0
  0
SPLINE
  5
161
100
AcDbEntity
  8
0
 62
7
100
AcDbSpline
 70
8
 71
3
 72
8
 73
4
 74
0
 40
0
 40
0
 40
0
 40
0
 40
1
 40
1
 40
1
 40
1
 10
173.285310
 20
77.052539
 30
0.0
 10
173.285310
 20
78.016829
 30
0.0
 10
172.928843
 20
78.524570
 30
0.0
 10
170.401020
 20
81.160857
 30
0.0
  0
SPLINE
  5
162
100
AcDbEntity
  8
0
 62
7
100
AcDbSpline
 70
8
 71
3
 72
8
 73
4
 74
0
 40
0
 40
0
 40
0
 40
0
 40
1
 40
1
 40
1
 40
1
 10
170.401020
 20
81.160857
 30
0.0
 10
166.469168
 20
85.969752
 30
0.0
 10
167.642363
 20
93.430594
 30
0.0
 10
168.653595
 20
96.269932
 30
0.0
  0
SPLINE
  5
163
100
AcDbEntity
  8
0
 62
7
100
AcDbSpline
 70
8
 71
3
 72
8
 73
4
 74
0
 40
0
 40
0
 40
0
 40
0
 40
1
 40
1
 40
1
 40
1
 10
168.653595
 20
96.269932
 30
0.0
 10
170.637533
 20
101.730393
 30
0.0
 10
170.879348
 20
102.599873
 30
0.0
 10
170.611935
 20
103.311326
 30
0.0
  0
SPLINE
  5
164
100
AcDbEntity
  8
0
 62
7
100
AcDbSpline
 70
8
 71
3
 72
8
 73
4
 74
0
 40
0
 40
0
 40
0
 40
0
 40
1
 40
1
 40
1
 40
1
 10
170.611935
 20
103.311326
 30
0.0
 10
170.495873
 20
103.620093
 30
0.0
 10
169.780905
 20
104.494329
 30
0.0
 10
169.023120
 20
105.254073
 30
0.0
  0
SPLINE
  5
165
100
AcDbEntity
  8
0
 62
7
100
AcDbSpline
 70
8
 71
3
 72
8
 73
4
 74
0
 40
0
 40
0
 40
0
 40
0
 40
1
 40
1
 40
1
 40
1
 10
169.023120
 20
105.254073
 30
0.0
 10
167.374988
 20
106.906449
 30
0.0
 10
165.974670
 20
109.293530
 30
0.0
 10
164.649330
 20
112.709932
 30
0.0
  0
SPLINE
  5
166
100
AcDbEntity
  8
0
 62
7
100
AcDbSpline
 70
8
 71
3
 72
8
 73
4
 74
0
 40
0
 40
0
 40
0
 40
0
 40
1
 40
1
 40
1
 40
1
 10
164.649330
 20
112.709932
 30
0.0
 10
163.124445
 20
116.640741
 30
0.0
 10
161.150738
 20
118.164997
 30
0.0
 10
159.042578
 20
127.406914
 30
0.0
  0
SPLINE
  5
167
100
AcDbEntity
  8
0
 62
7
100
AcDbSpline
 70
8
 71
3
 72
8
 73
4
 74
0
 40
0
 40
0
 40
0
 40
0
 40
1
 40
1
 40
1
 40
1
 10
159.042578
 20
127.406914
 30
0.0
 10
156.934418
 20
136.648830
 30
0.0
 10
157.265648
 20
149.463918
 30
0.0
 10
159.613905
 20
151.336568
 30
0.0
  0
SPLINE
  5
168
100
AcDbEntity
  8
0
 62
7
100
AcDbSpline
 70
8
 71
3
 72
8
 73
4
 74
0
 40
0
 40
0
 40
0
 40
0
 40
1
 40
1
 40
1
 40
1
 10
159.613905
 20
151.336568
 30
0.0
 10
163.754115
 20
153.936763
 30
0.0
 10
170.212673
 20
143.151654
 30
0.0
 10
172.383285
 20
139.949932
 30
0.0
  0
SPLINE
  5
169
100
AcDbEntity
  8
0
 62
7
100
AcDbSpline
 70
8
 71
3
 72
8
 73
4
 74
0
 40
0
 40
0
 40
0
 40
0
 40
1
 40
1
 40
1
 40
1
 10
172.383285
 20
139.949932
 30
0.0
 10
175.633628
 20
135.155563
 30
0.0
 10
178.332533
 20
128.992209
 30
0.0
 10
182.406945
 20
117.059421
 30
0.0
  0
LWPOLYLINE
  5
16a
100
AcDbEntity
  8
0
 62
7
100
AcDbPolyline
 90
3
 70
0
 10
114.400133
 20
152.811427
 30
0.0
 10
115.277205
 20
153.353488
 30
0.0
 10
115.685213
 20
152.849626
 30
0.0
  0
SPLINE
  5
16b
100
AcDbEntity
  8
0
 62
7
100
AcDbSpline
 70
8
 71
3
 72
8
 73
4
 74
0
 40
0
 40
0
 40
0
 40
0
 40
1
 40
1
 40
1
 40
1
 10
186.465488
 20
110.214898
 30
0.0
 10
187.461083
 20
110.195360
 30
0.0
 10
189.584955
 20
110.291707
 30
0.0
 10
189.709118
 20
110.441311
 30
0.0
  0
SPLINE
  5
16c
100
AcDbEntity
  8
0
 62
7
100
AcDbSpline
 70
8
 71
3
 72
8
 73
4
 74
0
 40
0
 40
0
 40
0
 40
0
 40
1
 40
1
 40
1
 40
1
 10
189.709118
 20
110.441311
 30
0.0
 10
188.835578
 20
117.455792
 30
0.0
 10
190.024913
 20
123.859858
 30
0.0
 10
191.892555
 20
129.132641
 30
0.0
  0
SPLINE
  5
16d
100
AcDbEntity
  8
0
 62
7
100
AcDbSpline
 70
8
 71
3
 72
8
 73
4
 74
0
 40
0
 40
0
 40
0
 40
0
 40
1
 40
1
 40
1
 40
1
 10
191.892555
 20
129.132641
 30
0.0
 10
193.760190
 20
134.405424
 30
0.0
 10
195.957263
 20
139.192811
 30
0.0
 10
197.587388
 20
142.774577
 30
0.0
  0
SPLINE
  5
16e
100
AcDbEntity
  8
0
 62
7
100
AcDbSpline
 70
8
 71
3
 72
8
 73
4
 74
0
 40
0
 40
0
 40
0
 40
0
 40
1
 40
1
 40
1
 40
1
 10
197.587388
 20
142.774577
 30
0.0
 10
199.217513
 20
146.356344
 30
0.0
 10
204.969975
 20
153.437397
 30
0.0
 10
207.636045
 20
152.811457
 30
0.0
  0
SPLINE
  5
16f
100
AcDbEntity
  8
0
 62
7
100
AcDbSpline
 70
8
 71
3
 72
8
 73
4
 74
0
 40
0
 40
0
 40
0
 40
0
 40
1
 40
1
 40
1
 40
1
 10
207.636045
 20
152.811457
 30
0.0
 10
210.302115
 20
152.185517
 30
0.0
 10
209.275838
 20
145.303757
 30
0.0
 10
210.046230
 20
138.283643
 30
0.0
  0
SPLINE
  5
170
100
AcDbEntity
  8
0
 62
7
100
AcDbSpline
 70
8
 71
3
 72
8
 73
4
 74
0
 40
0
 40
0
 40
0
 40
0
 40
1
 40
1
 40
1
 40
1
 10
210.046230
 20
138.283643
 30
0.0
 10
210.816623
 20
131.263529
 30
0.0
 10
210.414998
 20
126.091267
 30
0.0
 10
209.087228
 20
120.859980
 30
0.0
  0
SPLINE
  5
171
100
AcDbEntity
  8
0
 62
7
100
AcDbSpline
 70
8
 71
3
 72
8
 73
4
 74
0
 40
0
 40
0
 40
0
 40
0
 40
1
 40
1
 40
1
 40
1
 10
209.087228
 20
120.859980
 30
0.0
 10
207.759450
 20
115.628693
 30
0.0
 10
205.808498
 20
112.123853
 30
0.0
 10
204.764033
 20
106.440374
 30
0.0
  0
SPLINE
  5
172
100
AcDbEntity
  8
0
 62
7
100
AcDbSpline
 70
8
 71
3
 72
8
 73
4
 74
0
 40
0
 40
0
 40
0
 40
0
 40
1
 40
1
 40
1
 40
1
 10
204.764033
 20
106.440374
 30
0.0
 10
204.263813
 20
103.718432
 30
0.0
 10
203.824545
 20
102.693848
 30
0.0
 10
205.320645
 20
98.069935
 30
0.0
  0
SPLINE
  5
173
100
AcDbEntity
  8
0
 62
7
100
AcDbSpline
 70
8
 71
3
 72
8
 73
4
 74
0
 40
0
 40
0
 40
0
 40
0
 40
1
 40
1
 40
1
 40
1
 10
205.320645
 20
98.069935
 30
0.0
 10
206.744153
 20
93.513903
 30
0.0
 10
206.412405
 20
87.442558
 30
0.0
 10
204.192825
 20
83.321955
 30
0.0
  0
SPLINE
  5
174
100
AcDbEntity
  8
0
 62
7
100
AcDbSpline
 70
8
 71
3
 72
8
 73
4
 74
0
 40
0
 40
0
 40
0
 40
0
 40
1
 40
1
 40
1
 40
1
 10
204.192825
 20
83.321955
 30
0.0
 10
202.877265
 20
80.879650
 30
0.0
 10
199.084313
 20
78.501227
 30
0.0
 10
199.865160
 20
77.220624
 30
0.0
  0
SPLINE
  5
175
100
AcDbEntity
  8
0
 62
7
100
AcDbSpline
 70
8
 71
3
 72
8
 73
4
 74
0
 40
0
 40
0
 40
0
 40
0
 40
1
 40
1
 40
1
 40
1
 10
199.865160
 20
77.220624
 30
0.0
 10
200.120295
 20
76.802206
 30
0.0
 10
203.821538
 20
74.201872
 30
0.0
 10
205.980818
 20
71.969429
 30
0.0
  0
SPLINE
  5
176
100
AcDbEntity
  8
0
 62
7
100
AcDbSpline
 70
8
 71
3
 72
8
 73
4
 74
0
 40
0
 40
0
 40
0
 40
0
 40
1
 40
1
 40
1
 40
1
 10
205.980818
 20
71.969429
 30
0.0
 10
208.140090
 20
69.736993
 30
0.0
 10
210.468863
 20
67.163340
 30
0.0
 10
211.155855
 20
66.250200
 30
0.0
  0
SPLINE
  5
177
100
AcDbEntity
  8
0
 62
7
100
AcDbSpline
 70
8
 71
3
 72
8
 73
4
 74
0
 40
0
 40
0
 40
0
 40
0
 40
1
 40
1
 40
1
 40
1
 10
211.155855
 20
66.250200
 30
0.0
 10
212.901023
 20
63.930540
 30
0.0
 10
214.285268
 20
61.172272
 30
0.0
 10
214.730408
 20
59.127488
 30
0.0
  0
SPLINE
  5
178
100
AcDbEntity
  8
0
 62
7
100
AcDbSpline
 70
8
 71
3
 72
8
 73
4
 74
0
 40
0
 40
0
 40
0
 40
0
 40
1
 40
1
 40
1
 40
1
 10
214.730408
 20
59.127488
 30
0.0
 10
215.221073
 20
56.873587
 30
0.0
 10
215.209410
 20
50.978167
 30
0.0
 10
214.702583
 20
45.075465
 30
0.0
  0
SPLINE
  5
179
100
AcDbEntity
  8
0
 62
7
100
AcDbSpline
 70
8
 71
3
 72
8
 73
4
 74
0
 40
0
 40
0
 40
0
 40
0
 40
1
 40
1
 40
1
 40
1
 10
214.702583
 20
45.075465
 30
0.0
 10
214.233743
 20
39.614842
 30
0.0
 10
214.228590
 20
37.993073
 30
0.0
 10
214.677308
 20
37.125278
 30
0.0
  0
SPLINE
  5
17a
100
AcDbEntity
  8
0
 62
7
100
AcDbSpline
 70
8
 71
3
 72
8
 73
4
 74
0
 40
0
 40
0
 40
0
 40
0
 40
1
 40
1
 40
1
 40
1
 10
214.677308
 20
37.125278
 30
0.0
 10
214.870943
 20
36.750825
 30
0.0
 10
215.751750
 20
35.811188
 30
0.0
 10
216.634658
 20
35.037195
 30
0.0
  0
SPLINE
  5
17b
100
AcDbEntity
  8
0
 62
7
100
AcDbSpline
 70
8
 71
3
 72
8
 73
4
 74
0
 40
0
 40
0
 40
0
 40
0
 40
1
 40
1
 40
1
 40
1
 10
216.634658
 20
35.037195
 30
0.0
 10
218.506028
 20
33.396668
 30
0.0
 10
219.112523
 20
32.260260
 30
0.0
 10
219.119970
 20
30.380355
 30
0.0
  0
SPLINE
  5
17c
100
AcDbEntity
  8
0
 62
7
100
AcDbSpline
 70
8
 71
3
 72
8
 73
4
 74
0
 40
0
 40
0
 40
0
 40
0
 40
1
 40
1
 40
1
 40
1
 10
219.119970
 20
30.380355
 30
0.0
 10
219.135645
 20
26.435437
 30
0.0
 10
216.965925
 20
22.759425
 30
0.0
 10
213.725243
 20
21.240285
 30
0.0
  0
SPLINE
  5
17d
100
AcDbEntity
  8
0
 62
7
100
AcDbSpline
 70
8
 71
3
 72
8
 73
4
 74
0
 40
0
 40
0
 40
0
 40
0
 40
1
 40
1
 40
1
 40
1
 10
213.725243
 20
21.240285
 30
0.0
 10
210.490643
 20
19.724002
 30
0.0
 10
206.873828
 20
19.761900
 30
0.0
 10
201.646313
 20
21.366870
 30
0.0
  0
SPLINE
  5
17e
100
AcDbEntity
  8
0
 62
7
100
AcDbSpline
 70
8
 71
3
 72
8
 73
4
 74
0
 40
0
 40
0
 40
0
 40
0
 40
1
 40
1
 40
1
 40
1
 10
201.646313
 20
21.366870
 30
0.0
 10
197.602643
 20
22.608367
 30
0.0
 10
197.008800
 20
22.636057
 30
0.0
 10
193.112730
 20
21.764827
 30
0.0
  0
SPLINE
  5
17f
100
AcDbEntity
  8
0
 62
7
100
AcDbSpline
 70
8
 71
3
 72
8
 73
4
 74
0
 40
0
 40
0
 40
0
 40
0
 40
1
 40
1
 40
1
 40
1
 10
193.112730
 20
21.764827
 30
0.0
 10
188.599515
 20
20.755590
 30
0.0
 10
186.014655
 20
20.515260
 30
0.0
 10
182.643150
 20
20.791417
 30
0.0
  0
SPLINE
  5
180
100
AcDbEntity
  8
0
 62
7
100
AcDbSpline
 70
8
 71
3
 72
8
 73
4
 74
0
 40
0
 40
0
 40
0
 40
0
 40
1
 40
1
 40
1
 40
1
 10
182.643150
 20
20.791417
 30
0.0
 10
179.513663
 20
21.047753
 30
0.0
 10
178.011473
 20
21.304597
 30
0.0
 10
175.462658
 20
22.019160
 30
0.0
  0
SPLINE
  5
181
100
AcDbEntity
  8
0
 62
7
100
AcDbSpline
 70
8
 71
3
 72
8
 73
4
 74
0
 40
0
 40
0
 40
0
 40
0
 40
1
 40
1
 40
1
 40
1
 10
175.462658
 20
22.019160
 30
0.0
 10
174.380820
 20
22.322460
 30
0.0
 10
173.353170
 20
22.465868
 30
0.0
 10
172.848518
 20
22.383975
 30
0.0
  0
SPLINE
  5
182
100
AcDbEntity
  8
0
 62
7
100
AcDbSpline
 70
8
 71
3
 72
8
 73
4
 74
0
 40
0
 40
0
 40
0
 40
0
 40
1
 40
1
 40
1
 40
1
 10
172.848518
 20
22.383975
 30
0.0
 10
172.391160
 20
22.309725
 30
0.0
 10
171.087330
 20
21.659775
 30
0.0
 10
169.951103
 20
20.939565
 30
0.0
  0
SPLINE
  5
183
100
AcDbEntity
  8
0
 62
7
100
AcDbSpline
 70
8
 71
3
 72
8
 73
4
 74
0
 40
0
 40
0
 40
0
 40
0
 40
1
 40
1
 40
1
 40
1
 10
169.951103
 20
20.939565
 30
0.0
 10
167.436278
 20
19.345522
 30
0.0
 10
165.746513
 20
18.483285
 30
0.0
 10
164.230958
 20
18.020760
 30
0.0
  0
SPLINE
  5
184
100
AcDbEntity
  8
0
 62
7
100
AcDbSpline
 70
8
 71
3
 72
8
 73
4
 74
0
 40
0
 40
0
 40
0
 40
0
 40
1
 40
1
 40
1
 40
1
 10
164.230958
 20
18.020760
 30
0.0
 10
162.512783
 20
17.496390
 30
0.0
 10
160.145205
 20
17.382142
 30
0.0
 10
158.806605
 20
17.759003
 30
0.0
  0
LWPOLYLINE
  5
185
100
AcDbEntity
  8
0
 62
7
100
AcDbPolyline
 90
3
 70
0
 10
182.406945
 20
117.059421
 30
0.0
 10
184.732365
 20
110.248910
 30
0.0
 10
186.465488
 20
110.214898
 30
0.0
  0
SPLINE
  5
186
100
AcDbEntity
  8
0
 62
7
100
AcDbSpline
 70
8
 71
3
 72
8
 73
4
 74
0
 40
0
 40
0
 40
0
 40
0
 40
1
 40
1
 40
1
 40
1
 10
158.806673
 20
17.759003
 30
0.0
 10
156.486270
 20
18.412267
 30
0.0
 10
154.723215
 20
22.129800
 30
0.0
 10
154.036553
 20
24.442050
 30
0.0
  0
LWPOLYLINE
  5
187
100
AcDbEntity
  8
0
 62
7
100
AcDbPolyline
 90
1
 70
1
 10
158.806605
 20
17.759003
 30
0.0
  0
SPLINE
  5
188
100
AcDbEntity
  8
0
 62
7
100
AcDbSpline
 70
8
 71
3
 72
8
 73
4
 74
0
 40
0
 40
0
 40
0
 40
0
 40
1
 40
1
 40
1
 40
1
 10
7.108915
 20
39.683760
 30
0.0
 10
7.108915
 20
39.067184
 30
0.0
 10
6.779975
 20
38.497444
 30
0.0
 10
6.246005
 20
38.189156
 30
0.0
  0
SPLINE
  5
189
100
AcDbEntity
  8
0
 62
7
100
AcDbSpline
 70
8
 71
3
 72
8
 73
4
 74
0
 40
0
 40
0
 40
0
 40
0
 40
1
 40
1
 40
1
 40
1
 10
6.246005
 20
38.189156
 30
0.0
 10
5.712034
 20
37.880868
 30
0.0
 10
5.054155
 20
37.880868
 30
0.0
 10
4.520185
 20
38.189156
 30
0.0
  0
SPLINE
  5
18a
100
AcDbEntity
  8
0
 62
7
100
AcDbSpline
 70
8
 71
3
 72
8
 73
4
 74
0
 40
0
 40
0
 40
0
 40
0
 40
1
 40
1
 40
1
 40
1
 10
4.520185
 20
38.189156
 30
0.0
 10
3.986214
 20
38.497444
 30
0.0
 10
3.657275
 20
39.067184
 30
0.0
 10
3.657275
 20
39.683760
 30
0.0
  0
SPLINE
  5
18b
100
AcDbEntity
  8
0
 62
7
100
AcDbSpline
 70
8
 71
3
 72
8
 73
4
 74
0
 40
0
 40
0
 40
0
 40
0
 40
1
 40
1
 40
1
 40
1
 10
3.657275
 20
39.683760
 30
0.0
 10
3.657275
 20
40.300336
 30
0.0
 10
3.986214
 20
40.870076
 30
0.0
 10
4.520185
 20
41.178364
 30
0.0
  0
SPLINE
  5
18c
100
AcDbEntity
  8
0
 62
7
100
AcDbSpline
 70
8
 71
3
 72
8
 73
4
 74
0
 40
0
 40
0
 40
0
 40
0
 40
1
 40
1
 40
1
 40
1
 10
4.520185
 20
41.178364
 30
0.0
 10
5.054155
 20
41.486652
 30
0.0
 10
5.712034
 20
41.486652
 30
0.0
 10
6.246005
 20
41.178364
 30
0.0
  0
SPLINE
  5
18d
100
AcDbEntity
  8
0
 62
7
100
AcDbSpline
 70
8
 71
3
 72
8
 73
4
 74
0
 40
0
 40
0
 40
0
 40
0
 40
1
 40
1
 40
1
 40
1
 10
6.246005
 20
41.178364
 30
0.0
 10
6.779975
 20
40.870076
 30
0.0
 10
7.108915
 20
40.300336
 30
0.0
 10
7.108915
 20
39.683760
 30
0.0
  0
LWPOLYLINE
  5
18e
100
AcDbEntity
  8
0
 62
7
100
AcDbPolyline
 90
2
 70
0
 10
154.036553
 20
24.442050
 30
0.0
 10
127.899637
 20
24.736290
 30
0.0
  0
SPLINE
  5
18f
100
AcDbEntity
  8
0
 62
7
100
AcDbSpline
 70
8
 71
3
 72
8
 73
4
 74
0
 40
0
 40
0
 40
0
 40
0
 40
1
 40
1
 40
1
 40
1
 10
99.111655
 20
39.683760
 30
0.0
 10
99.111655
 20
39.067184
 30
0.0
 10
98.782716
 20
38.497444
 30
0.0
 10
98.248745
 20
38.189156
 30
0.0
  0
SPLINE
  5
190
100
AcDbEntity
  8
0
 62
7
100
AcDbSpline
 70
8
 71
3
 72
8
 73
4
 74
0
 40
0
 40
0
 40
0
 40
0
 40
1
 40
1
 40
1
 40
1
 10
98.248745
 20
38.189156
 30
0.0
 10
97.714774
 20
37.880868
 30
0.0
 10
97.056896
 20
37.880868
 30
0.0
 10
96.522925
 20
38.189156
 30
0.0
  0
SPLINE
  5
191
100
AcDbEntity
  8
0
 62
7
100
AcDbSpline
 70
8
 71
3
 72
8
 73
4
 74
0
 40
0
 40
0
 40
0
 40
0
 40
1
 40
1
 40
1
 40
1
 10
96.522925
 20
38.189156
 30
0.0
 10
95.988954
 20
38.497444
 30
0.0
 10
95.660015
 20
39.067184
 30
0.0
 10
95.660015
 20
39.683760
 30
0.0
  0
SPLINE
  5
192
100
AcDbEntity
  8
0
 62
7
100
AcDbSpline
 70
8
 71
3
 72
8
 73
4
 74
0
 40
0
 40
0
 40
0
 40
0
 40
1
 40
1
 40
1
 40
1
 10
95.660015
 20
39.683760
 30
0.0
 10
95.660015
 20
40.300336
 30
0.0
 10
95.988954
 20
40.870076
 30
0.0
 10
96.522925
 20
41.178364
 30
0.0
  0
SPLINE
  5
193
100
AcDbEntity
  8
0
 62
7
100
AcDbSpline
 70
8
 71
3
 72
8
 73
4
 74
0
 40
0
 40
0
 40
0
 40
0
 40
1
 40
1
 40
1
 40
1
 10
96.522925
 20
41.178364
 30
0.0
 10
97.056896
 20
41.486652
 30
0.0
 10
97.714774
 20
41.486652
 30
0.0
 10
98.248745
 20
41.178364
 30
0.0
  0
SPLINE
  5
194
100
AcDbEntity
  8
0
 62
7
100
AcDbSpline
 70
8
 71
3
 72
8
 73
4
 74
0
 40
0
 40
0
 40
0
 40
0
 40
1
 40
1
 40
1
 40
1
 10
98.248745
 20
41.178364
 30
0.0
 10
98.782716
 20
40.870076
 30
0.0
 10
99.111655
 20
40.300336
 30
0.0
 10
99.111655
 20
39.683760
 30
0.0
  0
LWPOLYLINE
  5
195
100
AcDbEntity
  8
0
 62
7
100
AcDbPolyline
 90
1
 70
1
 10
7.108915
 20
39.683760
 30
0.0
  0
SPLINE
  5
196
100
AcDbEntity
  8
0
 62
7
100
AcDbSpline
 70
8
 71
3
 72
8
 73
4
 74
0
 40
0
 40
0
 40
0
 40
0
 40
1
 40
1
 40
1
 40
1
 10
191.114380
 20
39.683760
 30
0.0
 10
191.114380
 20
39.067184
 30
0.0
 10
190.785441
 20
38.497444
 30
0.0
 10
190.251470
 20
38.189156
 30
0.0
  0
SPLINE
  5
197
100
AcDbEntity
  8
0
 62
7
100
AcDbSpline
 70
8
 71
3
 72
8
 73
4
 74
0
 40
0
 40
0
 40
0
 40
0
 40
1
 40
1
 40
1
 40
1
 10
190.251470
 20
38.189156
 30
0.0
 10
189.717499
 20
37.880868
 30
0.0
 10
189.059621
 20
37.880868
 30
0.0
 10
188.525650
 20
38.189156
 30
0.0
  0
SPLINE
  5
198
100
AcDbEntity
  8
0
 62
7
100
AcDbSpline
 70
8
 71
3
 72
8
 73
4
 74
0
 40
0
 40
0
 40
0
 40
0
 40
1
 40
1
 40
1
 40
1
 10
188.525650
 20
38.189156
 30
0.0
 10
187.991679
 20
38.497444
 30
0.0
 10
187.662740
 20
39.067184
 30
0.0
 10
187.662740
 20
39.683760
 30
0.0
  0
SPLINE
  5
199
100
AcDbEntity
  8
0
 62
7
100
AcDbSpline
 70
8
 71
3
 72
8
 73
4
 74
0
 40
0
 40
0
 40
0
 40
0
 40
1
 40
1
 40
1
 40
1
 10
187.662740
 20
39.683760
 30
0.0
 10
187.662740
 20
40.300336
 30
0.0
 10
187.991679
 20
40.870076
 30
0.0
 10
188.525650
 20
41.178364
 30
0.0
  0
SPLINE
  5
19a
100
AcDbEntity
  8
0
 62
7
100
AcDbSpline
 70
8
 71
3
 72
8
 73
4
 74
0
 40
0
 40
0
 40
0
 40
0
 40
1
 40
1
 40
1
 40
1
 10
188.525650
 20
41.178364
 30
0.0
 10
189.059621
 20
41.486652
 30
0.0
 10
189.717499
 20
41.486652
 30
0.0
 10
190.251470
 20
41.178364
 30
0.0
  0
SPLINE
  5
19b
100
AcDbEntity
  8
0
 62
7
100
AcDbSpline
 70
8
 71
3
 72
8
 73
4
 74
0
 40
0
 40
0
 40
0
 40
0
 40
1
 40
1
 40
1
 40
1
 10
190.251470
 20
41.178364
 30
0.0
 10
190.785441
 20
40.870076
 30
0.0
 10
191.114380
 20
40.300336
 30
0.0
 10
191.114380
 20
39.683760
 30
0.0
  0
LWPOLYLINE
  5
19c
100
AcDbEntity
  8
0
 62
7
100
AcDbPolyline
 90
1
 70
1
 10
99.111655
 20
39.683760
 30
0.0
  0
LWPOLYLINE
  5
19d
100
AcDbEntity
  8
0
 62
7
100
AcDbPolyline
 90
1
 70
1
 10
191.114380
 20
39.683760
 30
0.0
  0
ENDSEC
  0
SECTION
  2
OBJECTS
  0
DICTIONARY
  5
C
330
0
100
AcDbDictionary
  3
ACAD_GROUP
350
D
  3
ACAD_MLINESTYLE
350
17
  0
DICTIONARY
  5
D
330
C
100
AcDbDictionary
  0
DICTIONARY
  5
1A
330
C
100
AcDbDictionary
  0
DICTIONARY
  5
17
330
C
100
AcDbDictionary
  3
STANDARD
350
18
  0
DICTIONARY
  5
19
330
C
100
AcDbDictionary
  0
ENDSEC
  0
EOF
